  0
SECTION
  2
HEADER
  9
$ACADVER
  1
AC1009
  9
$INSBASE
 10
0.0
 20
0.0
 30
0.0
  9
$EXTMIN
 10
0.0
 20
0.0
 30
0.0
  9
$EXTMAX
 10
40.0
 20
20.0
 30
0.0
  9
$LIMMIN
 10
0.0
 20
0.0
  9
$LIMMAX
 10
420.0
 20
297.0
  9
$ORTHOMODE
 70
           1
  9
$REGENMODE
 70
           1
  9
$FILLMODE
 70
           1
  9
$QTEXTMODE
 70
           0
  9
$MIRRTEXT
 70
           1
  9
$DRAGMODE
 70
           0
  9
$LTSCALE
 40
1.0
  9
$OSMODE
 70
           0
  9
$ATTMODE
 70
           1
  9
$TEXTSIZE
 40
2.5
  9
$TRACEWID
 40
1.0
  9
$TEXTSTYLE
  7
STANDARD
  9
$CLAYER
  8
0
  9
$CELTYPE
  6
BYLAYER
  9
$CECOLOR
 62
         256
  9
$DIMSCALE
 40
1.0
  9
$DIMASZ
 40
2.5
  9
$DIMEXO
 40
0.625
  9
$DIMDLI
 40
3.75
  9
$DIMRND
 40
0.0
  9
$DIMDLE
 40
0.0
  9
$DIMEXE
 40
1.25
  9
$DIMTP
 40
0.0
  9
$DIMTM
 40
0.0
  9
$DIMTXT
 40
2.5
  9
$DIMCEN
 40
2.5
  9
$DIMTSZ
 40
0.0
  9
$DIMTOL
 70
           0
  9
$DIMLIM
 70
           0
  9
$DIMTIH
 70
           0
  9
$DIMTOH
 70
           0
  9
$DIMSE1
 70
           0
  9
$DIMSE2
 70
           0
  9
$DIMTAD
 70
           1
  9
$DIMZIN
 70
           8
  9
$DIMBLK
  1

  9
$DIMASO
 70
           1
  9
$DIMSHO
 70
           1
  9
$DIMPOST
  1

  9
$DIMAPOST
  1

  9
$DIMALT
 70
           0
  9
$DIMALTD
 70
           3
  9
$DIMALTF
 40
0.03937007874
  9
$DIMLFAC
 40
1.0
  9
$DIMTOFL
 70
           1
  9
$DIMTVP
 40
0.0
  9
$DIMTIX
 70
           0
  9
$DIMSOXD
 70
           0
  9
$DIMSAH
 70
           0
  9
$DIMBLK1
  1

  9
$DIMBLK2
  1

  9
$DIMSTYLE
  2
ISO-25
  9
$DIMCLRD
 70
           0
  9
$DIMCLRE
 70
           0
  9
$DIMCLRT
 70
           0
  9
$DIMTFAC
 40
1.0
  9
$DIMGAP
 40
0.625
  9
$LUNITS
 70
           2
  9
$LUPREC
 70
           4
  9
$AXISMODE
 70
           0
  9
$AXISUNIT
 10
0.0
 20
0.0
  9
$SKETCHINC
 40
1.0
  9
$FILLETRAD
 40
10.0
  9
$AUNITS
 70
           0
  9
$AUPREC
 70
           0
  9
$MENU
  1
.
  9
$ELEVATION
 40
0.0
  9
$PELEVATION
 40
0.0
  9
$THICKNESS
 40
0.0
  9
$LIMCHECK
 70
           0
  9
$BLIPMODE
 70
           0
  9
$CHAMFERA
 40
10.0
  9
$CHAMFERB
 40
10.0
  9
$SKPOLY
 70
           0
  9
$TDCREATE
 40
2452111.622399849
  9
$TDUPDATE
 40
2452185.822442130
  9
$TDINDWG
 40
0.0082043750
  9
$TDUSRTIMER
 40
0.0011226736
  9
$USRTIMER
 70
           1
  9
$ANGBASE
 50
0.0
  9
$ANGDIR
 70
           0
  9
$PDMODE
 70
           0
  9
$PDSIZE
 40
0.0
  9
$PLINEWID
 40
0.0
  9
$COORDS
 70
           0
  9
$SPLFRAME
 70
           0
  9
$SPLINETYPE
 70
           6
  9
$SPLINESEGS
 70
           8
  9
$ATTDIA
 70
           0
  9
$ATTREQ
 70
           0
  9
$HANDLING
 70
           1
  9
$HANDSEED
  5
265
  9
$SURFTAB1
 70
           6
  9
$SURFTAB2
 70
           6
  9
$SURFTYPE
 70
           6
  9
$SURFU
 70
           6
  9
$SURFV
 70
           6
  9
$UCSNAME
  2

  9
$UCSORG
 10
0.0
 20
0.0
 30
0.0
  9
$UCSXDIR
 10
1.0
 20
0.0
 30
0.0
  9
$UCSYDIR
 10
0.0
 20
1.0
 30
0.0
  9
$PUCSNAME
  2

  9
$PUCSORG
 10
0.0
 20
0.0
 30
0.0
  9
$PUCSXDIR
 10
1.0
 20
0.0
 30
0.0
  9
$PUCSYDIR
 10
0.0
 20
1.0
 30
0.0
  9
$USERI1
 70
           0
  9
$USERI2
 70
           0
  9
$USERI3
 70
           0
  9
$USERI4
 70
           0
  9
$USERI5
 70
           0
  9
$USERR1
 40
0.0
  9
$USERR2
 40
0.0
  9
$USERR3
 40
0.0
  9
$USERR4
 40
0.0
  9
$USERR5
 40
0.0
  9
$WORLDVIEW
 70
           1
  9
$SHADEDGE
 70
           3
  9
$SHADEDIF
 70
          70
  9
$TILEMODE
 70
           1
  9
$MAXACTVP
 70
          48
  9
$PINSBASE
 10
0.0
 20
0.0
 30
0.0
  9
$PLIMCHECK
 70
           0
  9
$PEXTMIN
 10
1.000000000000E+20
 20
1.000000000000E+20
 30
1.000000000000E+20
  9
$PEXTMAX
 10
-1.000000000000E+20
 20
-1.000000000000E+20
 30
-1.000000000000E+20
  9
$PLIMMIN
 10
0.0
 20
0.0
  9
$PLIMMAX
 10
420.0
 20
297.0
  9
$UNITMODE
 70
           0
  9
$VISRETAIN
 70
           1
  9
$PLINEGEN
 70
           0
  9
$PSLTSCALE
 70
           1
  9
$TREEDEPTH
 70
        3020
  9
$DWGCODEPAGE
  3
ansi_1250
  0
ENDSEC
  0
SECTION
  2
TABLES
  0
TABLE
  2
VPORT
 70
           1
  0
VPORT
  2
*ACTIVE
 70
           0
 10
0.0
 20
0.0
 11
1.0
 21
1.0
 12
20.0
 22
10.0
 13
0.0
 23
0.0
 14
10.0
 24
10.0
 15
10.0
 25
10.0
 16
0.0
 26
0.0
 36
1.0
 17
0.0
 27
0.0
 37
0.0
 40
20.4
 41
2.254156769596
 42
50.0
 43
0.0
 44
0.0
 50
0.0
 51
0.0
 71
           0
 72
         100
 73
           1
 74
           3
 75
           0
 76
           0
 77
           0
 78
           0
  0
ENDTAB
  0
TABLE
  2
LTYPE
 70
           1
  0
LTYPE
  2
CONTINUOUS
 70
           0
  3
Solid line
 72
          65
 73
           0
 40
0.0
  0
ENDTAB
  0
TABLE
  2
LAYER
 70
           2
  0
LAYER
  2
0
 70
           0
 62
           7
  6
CONTINUOUS
  0
LAYER
  2
MES-SIATKA
 70
           0
 62
           1
  6
CONTINUOUS
  0
ENDTAB
  0
TABLE
  2
STYLE
 70
           1
  0
STYLE
  2
STANDARD
 70
           0
 40
0.0
 41
1.0
 50
0.0
 71
           0
 42
2.5
  3
txt
  4

  0
ENDTAB
  0
TABLE
  2
VIEW
 70
           0
  0
ENDTAB
  0
TABLE
  2
UCS
 70
           0
  0
ENDTAB
  0
TABLE
  2
APPID
 70
           1
  0
APPID
  2
ACAD
 70
           0
  0
ENDTAB
  0
TABLE
  2
DIMSTYLE
 70
           1
  0
DIMSTYLE
  2
ISO-25
 70
           0
  3

  4

  5

  6

  7

 40
1.0
 41
2.5
 42
0.625
 43
3.75
 44
1.25
 45
0.0
 46
0.0
 47
0.0
 48
0.0
 71
           0
 72
           0
 73
           0
 74
           0
 75
           0
 76
           0
 77
           1
 78
           8
140
2.5
141
2.5
142
0.0
143
0.03937007874
144
1.0
145
0.0
146
1.0
147
0.625
170
           0
171
           3
172
           1
173
           0
174
           0
175
           0
176
           0
177
           0
178
           0
  0
ENDTAB
  0
ENDSEC
  0
SECTION
  2
BLOCKS
  0
BLOCK
  8
0
  5
148
  2
$MODEL_SPACE
 70
           0
 10
0.0
 20
0.0
 30
0.0
  3
$MODEL_SPACE
  0
ENDBLK
  8
0
  5
149
  0
BLOCK
  8
0
  5
14B
  2
$PAPER_SPACE
 70
           0
 10
0.0
 20
0.0
 30
0.0
  3
$PAPER_SPACE
  0
ENDBLK
  8
0
  5
14C
  0
ENDSEC
  0
SECTION
  2
ENTITIES
  0
LINE
  8
0
  5
14D
 10
0.0
 20
0.0
 30
0.0
 11
40.0
 21
0.0
 31
0.0
  0
LINE
  8
0
  5
14E
 10
40.0
 20
0.0
 30
0.0
 11
40.0
 21
20.0
 31
0.0
  0
LINE
  8
0
  5
14F
 10
40.0
 20
20.0
 30
0.0
 11
30.0
 21
20.0
 31
0.0
  0
LINE
  8
0
  5
150
 10
30.0
 20
20.0
 30
0.0
 11
30.0
 21
4.8
 31
0.0
  0
LINE
  8
0
  5
151
 10
30.2
 20
5.0
 30
0.0
 11
25.0
 21
5.0
 31
0.0
  0
LINE
  8
0
  5
152
 10
25.0
 20
5.0
 30
0.0
 11
25.0
 21
10.0
 31
0.0
  0
LINE
  8
0
  5
153
 10
25.0
 20
10.0
 30
0.0
 11
5.0
 21
10.0
 31
0.0
  0
LINE
  8
0
  5
154
 10
5.0
 20
10.0
 30
0.0
 11
0.0
 21
0.0
 31
0.0
  0
LINE
  8
0
  5
155
 10
0.2
 20
0.4
 30
0.0
 11
40.0
 21
0.4
 31
0.0
  0
LINE
  8
0
  5
156
 10
0.4
 20
0.8
 30
0.0
 11
40.0
 21
0.8
 31
0.0
  0
LINE
  8
0
  5
157
 10
0.6
 20
1.2
 30
0.0
 11
40.0
 21
1.2
 31
0.0
  0
LINE
  8
0
  5
158
 10
0.8
 20
1.6
 30
0.0
 11
40.0
 21
1.6
 31
0.0
  0
LINE
  8
0
  5
159
 10
1.0
 20
2.0
 30
0.0
 11
40.0
 21
2.0
 31
0.0
  0
LINE
  8
0
  5
15A
 10
1.2
 20
2.4
 30
0.0
 11
40.0
 21
2.4
 31
0.0
  0
LINE
  8
0
  5
15B
 10
1.4
 20
2.8
 30
0.0
 11
40.0
 21
2.8
 31
0.0
  0
LINE
  8
0
  5
15C
 10
1.6
 20
3.2
 30
0.0
 11
40.0
 21
3.2
 31
0.0
  0
LINE
  8
0
  5
15D
 10
1.8
 20
3.6
 30
0.0
 11
40.0
 21
3.6
 31
0.0
  0
LINE
  8
0
  5
15E
 10
2.0
 20
4.0
 30
0.0
 11
40.0
 21
4.0
 31
0.0
  0
LINE
  8
0
  5
15F
 10
2.2
 20
4.4
 30
0.0
 11
40.0
 21
4.4
 31
0.0
  0
LINE
  8
0
  5
160
 10
2.4
 20
4.8
 30
0.0
 11
17.4
 21
4.8
 31
0.0
  0
LINE
  8
0
  5
161
 10
2.6
 20
5.2
 30
0.0
 11
12.6
 21
5.2
 31
0.0
  0
LINE
  8
0
  5
162
 10
2.8
 20
5.6
 30
0.0
 11
25.0
 21
5.6
 31
0.0
  0
LINE
  8
0
  5
163
 10
3.0
 20
6.0
 30
0.0
 11
25.0
 21
6.0
 31
0.0
  0
LINE
  8
0
  5
164
 10
3.2
 20
6.4
 30
0.0
 11
25.0
 21
6.4
 31
0.0
  0
LINE
  8
0
  5
165
 10
3.4
 20
6.8
 30
0.0
 11
25.0
 21
6.8
 31
0.0
  0
LINE
  8
0
  5
166
 10
3.6
 20
7.2
 30
0.0
 11
25.0
 21
7.2
 31
0.0
  0
LINE
  8
0
  5
167
 10
3.8
 20
7.6
 30
0.0
 11
25.0
 21
7.6
 31
0.0
  0
LINE
  8
0
  5
168
 10
4.0
 20
8.0
 30
0.0
 11
25.0
 21
8.0
 31
0.0
  0
LINE
  8
0
  5
169
 10
4.2
 20
8.4
 30
0.0
 11
25.0
 21
8.4
 31
0.0
  0
LINE
  8
0
  5
16A
 10
4.4
 20
8.8
 30
0.0
 11
25.0
 21
8.8
 31
0.0
  0
LINE
  8
0
  5
16B
 10
4.6
 20
9.2
 30
0.0
 11
25.0
 21
9.2
 31
0.0
  0
LINE
  8
0
  5
16C
 10
4.8
 20
9.6
 30
0.0
 11
25.0
 21
9.6
 31
0.0
  0
LINE
  8
0
  5
16D
 10
30.0
 20
9.6
 30
0.0
 11
40.0
 21
9.6
 31
0.0
  0
LINE
  8
0
  5
16E
 10
30.0
 20
9.2
 30
0.0
 11
40.0
 21
9.2
 31
0.0
  0
LINE
  8
0
  5
16F
 10
30.0
 20
8.8
 30
0.0
 11
40.0
 21
8.8
 31
0.0
  0
LINE
  8
0
  5
170
 10
30.0
 20
8.4
 30
0.0
 11
40.0
 21
8.4
 31
0.0
  0
LINE
  8
0
  5
171
 10
30.0
 20
7.6
 30
0.0
 11
40.0
 21
7.6
 31
0.0
  0
LINE
  8
0
  5
172
 10
30.0
 20
8.0
 30
0.0
 11
40.0
 21
8.0
 31
0.0
  0
LINE
  8
0
  5
173
 10
30.0
 20
6.8
 30
0.0
 11
40.0
 21
6.8
 31
0.0
  0
LINE
  8
0
  5
174
 10
30.0
 20
7.2
 30
0.0
 11
40.0
 21
7.2
 31
0.0
  0
LINE
  8
0
  5
175
 10
30.0
 20
6.4
 30
0.0
 11
40.0
 21
6.4
 31
0.0
  0
LINE
  8
0
  5
176
 10
30.0
 20
6.0
 30
0.0
 11
40.0
 21
6.0
 31
0.0
  0
LINE
  8
0
  5
177
 10
30.0
 20
5.6
 30
0.0
 11
40.0
 21
5.6
 31
0.0
  0
LINE
  8
0
  5
178
 10
30.0
 20
5.2
 30
0.0
 11
40.0
 21
5.2
 31
0.0
  0
LINE
  8
0
  5
179
 10
30.0
 20
10.0
 30
0.0
 11
40.0
 21
10.0
 31
0.0
  0
LINE
  8
0
  5
17A
 10
30.0
 20
10.4
 30
0.0
 11
40.0
 21
10.4
 31
0.0
  0
LINE
  8
0
  5
17B
 10
30.0
 20
10.8
 30
0.0
 11
40.0
 21
10.8
 31
0.0
  0
LINE
  8
0
  5
17C
 10
30.0
 20
11.2
 30
0.0
 11
40.0
 21
11.2
 31
0.0
  0
LINE
  8
0
  5
17D
 10
30.0
 20
11.6
 30
0.0
 11
40.0
 21
11.6
 31
0.0
  0
LINE
  8
0
  5
17E
 10
30.0
 20
12.0
 30
0.0
 11
40.0
 21
12.0
 31
0.0
  0
LINE
  8
0
  5
17F
 10
30.0
 20
12.4
 30
0.0
 11
40.0
 21
12.4
 31
0.0
  0
LINE
  8
0
  5
180
 10
30.0
 20
12.8
 30
0.0
 11
40.0
 21
12.8
 31
0.0
  0
LINE
  8
0
  5
181
 10
30.0
 20
13.2
 30
0.0
 11
40.0
 21
13.2
 31
0.0
  0
LINE
  8
0
  5
182
 10
30.0
 20
13.6
 30
0.0
 11
40.0
 21
13.6
 31
0.0
  0
LINE
  8
0
  5
183
 10
30.0
 20
14.0
 30
0.0
 11
40.0
 21
14.0
 31
0.0
  0
LINE
  8
0
  5
184
 10
30.0
 20
14.4
 30
0.0
 11
40.0
 21
14.4
 31
0.0
  0
LINE
  8
0
  5
185
 10
30.0
 20
14.8
 30
0.0
 11
40.0
 21
14.8
 31
0.0
  0
LINE
  8
0
  5
186
 10
30.0
 20
15.2
 30
0.0
 11
40.0
 21
15.2
 31
0.0
  0
LINE
  8
0
  5
187
 10
30.0
 20
15.6
 30
0.0
 11
40.0
 21
15.6
 31
0.0
  0
LINE
  8
0
  5
188
 10
30.0
 20
16.0
 30
0.0
 11
40.0
 21
16.0
 31
0.0
  0
LINE
  8
0
  5
189
 10
30.0
 20
16.4
 30
0.0
 11
40.0
 21
16.4
 31
0.0
  0
LINE
  8
0
  5
18A
 10
30.0
 20
16.8
 30
0.0
 11
40.0
 21
16.8
 31
0.0
  0
LINE
  8
0
  5
18B
 10
30.0
 20
17.2
 30
0.0
 11
40.0
 21
17.2
 31
0.0
  0
LINE
  8
0
  5
18C
 10
30.0
 20
17.6
 30
0.0
 11
40.0
 21
17.6
 31
0.0
  0
LINE
  8
0
  5
18D
 10
30.0
 20
18.0
 30
0.0
 11
40.0
 21
18.0
 31
0.0
  0
LINE
  8
0
  5
18E
 10
30.0
 20
18.4
 30
0.0
 11
40.0
 21
18.4
 31
0.0
  0
LINE
  8
0
  5
18F
 10
30.0
 20
18.8
 30
0.0
 11
40.0
 21
18.8
 31
0.0
  0
LINE
  8
0
  5
190
 10
30.0
 20
19.2
 30
0.0
 11
40.0
 21
19.2
 31
0.0
  0
LINE
  8
0
  5
191
 10
30.0
 20
19.6
 30
0.0
 11
40.0
 21
19.6
 31
0.0
  0
LINE
  8
0
  5
192
 10
30.0
 20
20.0
 30
0.0
 11
40.0
 21
20.0
 31
0.0
  0
LINE
  8
0
  5
193
 10
24.6
 20
0.0
 30
0.0
 11
24.6
 21
10.0
 31
0.0
  0
LINE
  8
0
  5
194
 10
24.2
 20
0.0
 30
0.0
 11
24.2
 21
10.0
 31
0.0
  0
LINE
  8
0
  5
195
 10
23.8
 20
0.0
 30
0.0
 11
23.8
 21
10.0
 31
0.0
  0
LINE
  8
0
  5
196
 10
23.4
 20
0.0
 30
0.0
 11
23.4
 21
10.0
 31
0.0
  0
LINE
  8
0
  5
197
 10
23.0
 20
0.0
 30
0.0
 11
23.0
 21
10.0
 31
0.0
  0
LINE
  8
0
  5
198
 10
22.6
 20
0.0
 30
0.0
 11
22.6
 21
10.0
 31
0.0
  0
LINE
  8
0
  5
199
 10
22.2
 20
0.0
 30
0.0
 11
22.2
 21
10.0
 31
0.0
  0
LINE
  8
0
  5
19A
 10
21.8
 20
0.0
 30
0.0
 11
21.8
 21
10.0
 31
0.0
  0
LINE
  8
0
  5
19B
 10
21.4
 20
0.0
 30
0.0
 11
21.4
 21
10.0
 31
0.0
  0
LINE
  8
0
  5
19C
 10
21.0
 20
0.0
 30
0.0
 11
21.0
 21
10.0
 31
0.0
  0
LINE
  8
0
  5
19D
 10
20.6
 20
0.0
 30
0.0
 11
20.6
 21
10.0
 31
0.0
  0
LINE
  8
0
  5
19E
 10
20.2
 20
0.0
 30
0.0
 11
20.2
 21
10.0
 31
0.0
  0
LINE
  8
0
  5
19F
 10
19.8
 20
0.0
 30
0.0
 11
19.8
 21
10.0
 31
0.0
  0
LINE
  8
0
  5
1A0
 10
19.4
 20
0.0
 30
0.0
 11
19.4
 21
10.0
 31
0.0
  0
LINE
  8
0
  5
1A1
 10
19.0
 20
0.0
 30
0.0
 11
19.0
 21
10.0
 31
0.0
  0
LINE
  8
0
  5
1A2
 10
18.6
 20
0.0
 30
0.0
 11
18.6
 21
10.0
 31
0.0
  0
LINE
  8
0
  5
1A3
 10
18.2
 20
0.0
 30
0.0
 11
18.2
 21
4.4
 31
0.0
  0
LINE
  8
0
  5
1A4
 10
17.8
 20
0.0
 30
0.0
 11
17.8
 21
4.4
 31
0.0
  0
LINE
  8
0
  5
1A5
 10
17.4
 20
0.0
 30
0.0
 11
17.4
 21
10.0
 31
0.0
  0
LINE
  8
0
  5
1A6
 10
17.0
 20
0.0
 30
0.0
 11
17.0
 21
10.0
 31
0.0
  0
LINE
  8
0
  5
1A7
 10
16.6
 20
0.0
 30
0.0
 11
16.6
 21
10.0
 31
0.0
  0
LINE
  8
0
  5
1A8
 10
16.2
 20
0.0
 30
0.0
 11
16.2
 21
10.0
 31
0.0
  0
LINE
  8
0
  5
1A9
 10
15.8
 20
0.0
 30
0.0
 11
15.8
 21
10.0
 31
0.0
  0
LINE
  8
0
  5
1AA
 10
15.4
 20
0.0
 30
0.0
 11
15.4
 21
10.0
 31
0.0
  0
LINE
  8
0
  5
1AB
 10
15.0
 20
0.0
 30
0.0
 11
15.0
 21
10.0
 31
0.0
  0
LINE
  8
0
  5
1AC
 10
14.6
 20
0.0
 30
0.0
 11
14.6
 21
4.8
 31
0.0
  0
LINE
  8
0
  5
1AD
 10
14.2
 20
0.0
 30
0.0
 11
14.2
 21
10.0
 31
0.0
  0
LINE
  8
0
  5
1AE
 10
13.8
 20
0.0
 30
0.0
 11
13.8
 21
10.0
 31
0.0
  0
LINE
  8
0
  5
1AF
 10
13.4
 20
0.0
 30
0.0
 11
13.4
 21
10.0
 31
0.0
  0
LINE
  8
0
  5
1B0
 10
13.0
 20
0.0
 30
0.0
 11
13.0
 21
10.0
 31
0.0
  0
LINE
  8
0
  5
1B1
 10
12.6
 20
0.0
 30
0.0
 11
12.6
 21
10.0
 31
0.0
  0
LINE
  8
0
  5
1B2
 10
12.2
 20
0.0
 30
0.0
 11
12.2
 21
10.0
 31
0.0
  0
LINE
  8
0
  5
1B3
 10
11.8
 20
0.0
 30
0.0
 11
11.8
 21
10.0
 31
0.0
  0
LINE
  8
0
  5
1B4
 10
11.4
 20
0.0
 30
0.0
 11
11.4
 21
10.0
 31
0.0
  0
LINE
  8
0
  5
1B5
 10
11.0
 20
0.0
 30
0.0
 11
11.0
 21
10.0
 31
0.0
  0
LINE
  8
0
  5
1B6
 10
10.6
 20
0.0
 30
0.0
 11
10.6
 21
10.0
 31
0.0
  0
LINE
  8
0
  5
1B7
 10
10.2
 20
0.0
 30
0.0
 11
10.2
 21
10.0
 31
0.0
  0
LINE
  8
0
  5
1B8
 10
9.8
 20
0.0
 30
0.0
 11
9.8
 21
10.0
 31
0.0
  0
LINE
  8
0
  5
1B9
 10
9.4
 20
0.0
 30
0.0
 11
9.4
 21
10.0
 31
0.0
  0
LINE
  8
0
  5
1BA
 10
9.0
 20
0.0
 30
0.0
 11
9.0
 21
10.0
 31
0.0
  0
LINE
  8
0
  5
1BB
 10
8.6
 20
0.0
 30
0.0
 11
8.6
 21
10.0
 31
0.0
  0
LINE
  8
0
  5
1BC
 10
8.2
 20
0.0
 30
0.0
 11
8.2
 21
10.0
 31
0.0
  0
LINE
  8
0
  5
1BD
 10
7.8
 20
0.0
 30
0.0
 11
7.8
 21
10.0
 31
0.0
  0
LINE
  8
0
  5
1BE
 10
7.4
 20
0.0
 30
0.0
 11
7.4
 21
10.0
 31
0.0
  0
LINE
  8
0
  5
1BF
 10
7.0
 20
0.0
 30
0.0
 11
7.0
 21
10.0
 31
0.0
  0
LINE
  8
0
  5
1C0
 10
6.6
 20
0.0
 30
0.0
 11
6.6
 21
10.0
 31
0.0
  0
LINE
  8
0
  5
1C1
 10
6.2
 20
0.0
 30
0.0
 11
6.2
 21
10.0
 31
0.0
  0
LINE
  8
0
  5
1C2
 10
5.8
 20
0.0
 30
0.0
 11
5.8
 21
10.0
 31
0.0
  0
LINE
  8
0
  5
1C3
 10
5.4
 20
0.0
 30
0.0
 11
5.4
 21
10.0
 31
0.0
  0
LINE
  8
0
  5
1C4
 10
5.0
 20
0.0
 30
0.0
 11
5.0
 21
10.0
 31
0.0
  0
LINE
  8
0
  5
1C5
 10
4.6
 20
0.0
 30
0.0
 11
4.6
 21
9.2
 31
0.0
  0
LINE
  8
0
  5
1C6
 10
4.2
 20
0.0
 30
0.0
 11
4.2
 21
8.4
 31
0.0
  0
LINE
  8
0
  5
1C7
 10
3.8
 20
0.0
 30
0.0
 11
3.8
 21
7.6
 31
0.0
  0
LINE
  8
0
  5
1C8
 10
3.4
 20
0.0
 30
0.0
 11
3.4
 21
6.8
 31
0.0
  0
LINE
  8
0
  5
1C9
 10
3.0
 20
0.0
 30
0.0
 11
3.0
 21
6.0
 31
0.0
  0
LINE
  8
0
  5
1CA
 10
2.6
 20
0.0
 30
0.0
 11
2.6
 21
5.2
 31
0.0
  0
LINE
  8
0
  5
1CB
 10
2.2
 20
0.0
 30
0.0
 11
2.2
 21
4.4
 31
0.0
  0
LINE
  8
0
  5
1CC
 10
1.8
 20
0.0
 30
0.0
 11
1.8
 21
3.6
 31
0.0
  0
LINE
  8
0
  5
1CD
 10
1.4
 20
0.0
 30
0.0
 11
1.4
 21
2.8
 31
0.0
  0
LINE
  8
0
  5
1CE
 10
1.0
 20
0.0
 30
0.0
 11
1.0
 21
2.0
 31
0.0
  0
LINE
  8
0
  5
1CF
 10
0.6
 20
0.0
 30
0.0
 11
0.6
 21
1.2
 31
0.0
  0
LINE
  8
0
  5
1D0
 10
0.2
 20
0.0
 30
0.0
 11
0.2
 21
0.4
 31
0.0
  0
LINE
  8
0
  5
1D1
 10
25.0
 20
5.0
 30
0.0
 11
25.0
 21
0.0
 31
0.0
  0
LINE
  8
0
  5
1D2
 10
25.4
 20
5.0
 30
0.0
 11
25.4
 21
0.0
 31
0.0
  0
LINE
  8
0
  5
1D3
 10
25.8
 20
5.0
 30
0.0
 11
25.8
 21
0.0
 31
0.0
  0
LINE
  8
0
  5
1D4
 10
26.2
 20
5.0
 30
0.0
 11
26.2
 21
0.0
 31
0.0
  0
LINE
  8
0
  5
1D5
 10
26.6
 20
5.0
 30
0.0
 11
26.6
 21
0.0
 31
0.0
  0
LINE
  8
0
  5
1D6
 10
27.0
 20
5.0
 30
0.0
 11
27.0
 21
0.0
 31
0.0
  0
LINE
  8
0
  5
1D7
 10
27.4
 20
5.0
 30
0.0
 11
27.4
 21
0.0
 31
0.0
  0
LINE
  8
0
  5
1D8
 10
27.8
 20
5.0
 30
0.0
 11
27.8
 21
0.0
 31
0.0
  0
LINE
  8
0
  5
1D9
 10
28.2
 20
5.0
 30
0.0
 11
28.2
 21
0.0
 31
0.0
  0
LINE
  8
0
  5
1DA
 10
28.6
 20
5.0
 30
0.0
 11
28.6
 21
0.0
 31
0.0
  0
LINE
  8
0
  5
1DB
 10
29.0
 20
5.0
 30
0.0
 11
29.0
 21
0.0
 31
0.0
  0
LINE
  8
0
  5
1DC
 10
29.4
 20
5.0
 30
0.0
 11
29.4
 21
0.0
 31
0.0
  0
LINE
  8
0
  5
1DD
 10
29.8
 20
5.0
 30
0.0
 11
29.8
 21
0.0
 31
0.0
  0
LINE
  8
0
  5
1DE
 10
30.2
 20
20.0
 30
0.0
 11
30.2
 21
0.0
 31
0.0
  0
LINE
  8
0
  5
1DF
 10
30.6
 20
20.0
 30
0.0
 11
30.6
 21
0.0
 31
0.0
  0
LINE
  8
0
  5
1E0
 10
31.0
 20
20.0
 30
0.0
 11
31.0
 21
0.0
 31
0.0
  0
LINE
  8
0
  5
1E1
 10
31.4
 20
20.0
 30
0.0
 11
31.4
 21
0.0
 31
0.0
  0
LINE
  8
0
  5
1E2
 10
31.8
 20
20.0
 30
0.0
 11
31.8
 21
0.0
 31
0.0
  0
LINE
  8
0
  5
1E3
 10
32.2
 20
20.0
 30
0.0
 11
32.2
 21
0.0
 31
0.0
  0
LINE
  8
0
  5
1E4
 10
32.6
 20
20.0
 30
0.0
 11
32.6
 21
0.0
 31
0.0
  0
LINE
  8
0
  5
1E5
 10
33.0
 20
20.0
 30
0.0
 11
33.0
 21
0.0
 31
0.0
  0
LINE
  8
0
  5
1E6
 10
33.4
 20
20.0
 30
0.0
 11
33.4
 21
0.0
 31
0.0
  0
LINE
  8
0
  5
1E7
 10
33.8
 20
20.0
 30
0.0
 11
33.8
 21
0.0
 31
0.0
  0
LINE
  8
0
  5
1E8
 10
34.2
 20
20.0
 30
0.0
 11
34.2
 21
0.0
 31
0.0
  0
LINE
  8
0
  5
1E9
 10
34.6
 20
20.0
 30
0.0
 11
34.6
 21
0.0
 31
0.0
  0
LINE
  8
0
  5
1EA
 10
35.0
 20
20.0
 30
0.0
 11
35.0
 21
0.0
 31
0.0
  0
LINE
  8
0
  5
1EB
 10
35.4
 20
20.0
 30
0.0
 11
35.4
 21
0.0
 31
0.0
  0
LINE
  8
0
  5
1EC
 10
35.8
 20
20.0
 30
0.0
 11
35.8
 21
0.0
 31
0.0
  0
LINE
  8
0
  5
1ED
 10
36.2
 20
20.0
 30
0.0
 11
36.2
 21
0.0
 31
0.0
  0
LINE
  8
0
  5
1EE
 10
36.6
 20
20.0
 30
0.0
 11
36.6
 21
0.0
 31
0.0
  0
LINE
  8
0
  5
1EF
 10
37.0
 20
20.0
 30
0.0
 11
37.0
 21
0.0
 31
0.0
  0
LINE
  8
0
  5
1F0
 10
37.4
 20
20.0
 30
0.0
 11
37.4
 21
0.0
 31
0.0
  0
LINE
  8
0
  5
1F1
 10
37.8
 20
20.0
 30
0.0
 11
37.8
 21
0.0
 31
0.0
  0
LINE
  8
0
  5
1F2
 10
38.2
 20
20.0
 30
0.0
 11
38.2
 21
0.0
 31
0.0
  0
LINE
  8
0
  5
1F3
 10
38.6
 20
20.0
 30
0.0
 11
38.6
 21
0.0
 31
0.0
  0
LINE
  8
0
  5
1F4
 10
39.0
 20
20.0
 30
0.0
 11
39.0
 21
0.0
 31
0.0
  0
LINE
  8
0
  5
1F5
 10
39.4
 20
20.0
 30
0.0
 11
39.4
 21
0.0
 31
0.0
  0
LINE
  8
0
  5
1F6
 10
39.8
 20
20.0
 30
0.0
 11
39.8
 21
0.0
 31
0.0
  0
LINE
  8
0
  5
1FD
 10
17.8
 20
5.6
 30
0.0
 11
17.8
 21
10.0
 31
0.0
  0
LINE
  8
0
  5
1FE
 10
18.6
 20
5.2
 30
0.0
 11
25.0
 21
5.2
 31
0.0
  0
LINE
  8
0
  5
1FF
 10
18.6
 20
4.8
 30
0.0
 11
40.0
 21
4.8
 31
0.0
  0
LINE
  8
0
  5
200
 10
18.2
 20
5.6
 30
0.0
 11
18.2
 21
10.0
 31
0.0
  0
LINE
  8
0
  5
201
 10
6.42399777094
 20
8.0
 30
0.0
 11
6.42399777094
 21
8.4
 31
0.0
  0
LINE
  8
0
  5
238
 10
13.0
 20
5.2
 30
0.0
 11
17.4
 21
5.2
 31
0.0
  0
LINE
  8
0
  5
239
 10
13.0
 20
5.2
 30
0.0
 11
12.6
 21
4.8
 31
0.0
  0
LINE
  8
0
  5
23A
 10
14.6
 20
5.2
 30
0.0
 11
14.6
 21
10.0
 31
0.0
  0
ENDSEC
  0
EOF
